IT'S HAPPY LINE TAB

Aller en bas

IT'S HAPPY LINE TAB

Message  Patoche le Mer 26 Avr - 22:54

...

"It's Happy Line" by YUI


Intro
________________
E ---3----------- 3------------
B ---3-----1-----3------1-----
G -----------------------------
D ----------------------------->> (repeat)
A ---2-----x-----2------x-----
E ---3-----3-----3------3-----

Verse 1
___________________
E --------------------------------------- 1--------------1--------------- 1---------
B -----1------------ 1-----3------------ 1--------------1--------------- 1------3--
G -------------------------2------------ 2--------------2--------------- 2------2--
D -----2------------2------------2----- 3------2-------3-------2-------3---------
A -----3-----2-------------------2----- 3------2-------3-------2-------3---------
E ----------- 3--------------------------1---------------1---------------1---------

Chorus
___________________
E ------3-------------------------3------------------------------
B ------3-----3----------1-------3------3----------2-------1-----
G ------------2--------------------------2----------2------------
D -----------------2-----2--------------------2---- 2------ 2----
A ------2----------2-----3-------2-----------2-------------3----
E ------3-------------------------3-------------------------------

Break
___________________
E ----------------------------------
B ----------------------------------
G ----------------------------------
D ------2------------2-------------
A ------2-----2------2------2-----
E -------------3-------------3-----

Verse 2
____________________
E ------------------------------------------1--------------1---------------1---------
B -----1------------0-------3-------------1---------------1---------------1------3--
G ------------------0-------2-------------2---------------2---------------2------2--
D -----2------------2------------2--------3-------2------3-------2-------3---------
A -----3-----2-------------------2--------3-------2------3-------2-------3---------
E ----------- 3----------------------------1---------------1---------------1---------

Chorus X2

Break X2 (for the last chord, replace it with this one)

E ----------
B ----------
G ----------
D ---2-----
A ---3-----
E ----------

THE END
avatar
Patoche
Fan de Yui
Fan de Yui

Masculin
Nombre de messages : 351
Age : 31
Date d'inscription : 09/03/2006

Voir le profil de l'utilisateur

Revenir en haut Aller en bas

Revenir en haut

- Sujets similaires

 
Permission de ce forum:
Vous ne pouvez pas répondre aux sujets dans ce forum